ISO-10303-21;
HEADER;
FILE_DESCRIPTION (( 'STEP AP203' ),
    '1' );
FILE_NAME ('Q-ZDWWP-R12-20-1064-SHM.STEP',
    '2020-12-22T09:01:07',
    ( '' ),
    ( '' ),
    'SwSTEP 2.0',
    'SolidWorks 2020',
    '' );
FILE_SCHEMA (( 'CONFIG_CONTROL_DESIGN' ));
ENDSEC;

DATA;
#1 = ORIENTED_EDGE ( 'NONE', *, *, #137, .T. ) ;
#2 = CLOSED_SHELL ( 'NONE', ( #188, #64, #210, #251, #141, #270, #187, #311, #54, #124 ) ) ;
#3 = CARTESIAN_POINT ( 'NONE',  ( -1.614212418857619014, 0.000000000000000000, 10.00000000000000000 ) ) ;
#4 = DIRECTION ( 'NONE',  ( 0.000000000000000000, 0.000000000000000000, 1.000000000000000000 ) ) ;
#5 = AXIS2_PLACEMENT_3D ( 'NONE', #16, #12, #116 ) ;
#6 = DIRECTION ( 'NONE',  ( -1.000000000000000000, -0.000000000000000000, -0.000000000000000000 ) ) ;
#7 = CARTESIAN_POINT ( 'NONE',  ( -3.000000000000000000, 1.555301434917138433E-15, -12.69999999999999929 ) ) ;
#8 = AXIS2_PLACEMENT_3D ( 'NONE', #207, #114, #182 ) ;
#9 = DIRECTION ( 'NONE',  ( 0.000000000000000000, 0.000000000000000000, 1.000000000000000000 ) ) ;
#10 = CARTESIAN_POINT ( 'NONE',  ( -1.614212418857619014, 0.000000000000000000, 10.00000000000000000 ) ) ;
#11 = SECURITY_CLASSIFICATION ( '', '', #250 ) ;
#12 = DIRECTION ( 'NONE',  ( 1.000000000000000000, 0.000000000000000000, 0.000000000000000000 ) ) ;
#13 = EDGE_CURVE ( 'NONE', #21, #178, #32, .T. ) ;
#14 = ORIENTED_EDGE ( 'NONE', *, *, #159, .F. ) ;
#15 = VECTOR ( 'NONE', #228, 1000.000000000000000 ) ;
#16 = CARTESIAN_POINT ( 'NONE',  ( -2.500000000000000444, 0.000000000000000000, 0.000000000000000000 ) ) ;
#17 = EDGE_LOOP ( 'NONE', ( #169, #68, #282, #39 ) ) ;
#18 = LINE ( 'NONE', #121, #80 ) ;
#19 = LOCAL_TIME ( 17, 1, 7.000000000000000000, #274 ) ;
#20 = CARTESIAN_POINT ( 'NONE',  ( -1.614212418857619014, 0.000000000000000000, 0.000000000000000000 ) ) ;
#21 = VERTEX_POINT ( 'NONE', #221 ) ;
#22 = CALENDAR_DATE ( 2020, 22, 12 ) ;
#23 =( NAMED_UNIT ( * ) PLANE_ANGLE_UNIT ( ) SI_UNIT ( $, .RADIAN. ) );
#24 = VECTOR ( 'NONE', #6, 1000.000000000000000 ) ;
#25 = PERSON_AND_ORGANIZATION_ROLE ( 'classification_officer' ) ;
#26 = DIRECTION ( 'NONE',  ( -1.000000000000000000, -0.000000000000000000, -0.000000000000000000 ) ) ;
#27 = ORIENTED_EDGE ( 'NONE', *, *, #217, .F. ) ;
#28 = VERTEX_POINT ( 'NONE', #203 ) ;
#29 = EDGE_LOOP ( 'NONE', ( #1, #93 ) ) ;
#30 = ADVANCED_BREP_SHAPE_REPRESENTATION ( 'Q-ZDWWP-R12-20-1064-SHM', ( #300, #241 ), #144 ) ;
#31 = CIRCLE ( 'NONE', #151, 10.00000000000000000 ) ;
#32 = LINE ( 'NONE', #3, #15 ) ;
#33 = DIRECTION ( 'NONE',  ( -1.000000000000000000, -0.000000000000000000, -0.000000000000000000 ) ) ;
#34 = CARTESIAN_POINT ( 'NONE',  ( -3.000000000000000444, 0.000000000000000000, 0.000000000000000000 ) ) ;
#35 = DIRECTION ( 'NONE',  ( -1.000000000000000000, -0.000000000000000000, -0.000000000000000000 ) ) ;
#36 = AXIS2_PLACEMENT_3D ( 'NONE', #139, #180, #9 ) ;
#37 = CYLINDRICAL_SURFACE ( 'NONE', #317, 12.69999999999999929 ) ;
#38 = EDGE_CURVE ( 'NONE', #122, #155, #297, .T. ) ;
#39 = ORIENTED_EDGE ( 'NONE', *, *, #44, .T. ) ;
#40 = CARTESIAN_POINT ( 'NONE',  ( 3.000000000000000000, 0.000000000000000000, 0.000000000000000000 ) ) ;
#41 = CYLINDRICAL_SURFACE ( 'NONE', #156, 12.69999999999999929 ) ;
#42 = PRODUCT_DEFINITION_SHAPE ( 'NONE', 'NONE',  #223 ) ;
#43 = VERTEX_POINT ( 'NONE', #47 ) ;
#44 = EDGE_CURVE ( 'NONE', #178, #157, #268, .T. ) ;
#45 = DATE_AND_TIME ( #299, #19 ) ;
#46 = PERSON_AND_ORGANIZATION ( #118, #334 ) ;
#47 = CARTESIAN_POINT ( 'NONE',  ( -3.000000000000000000, 0.000000000000000000, 12.69999999999999929 ) ) ;
#48 = APPLICATION_CONTEXT ( 'configuration controlled 3d designs of mechanical parts and assemblies' ) ;
#49 = VECTOR ( 'NONE', #60, 1000.000000000000000 ) ;
#50 = DIRECTION ( 'NONE',  ( -1.000000000000000000, -0.000000000000000000, -0.000000000000000000 ) ) ;
#51 = ORIENTED_EDGE ( 'NONE', *, *, #105, .F. ) ;
#52 = CIRCLE ( 'NONE', #96, 10.00000000000000000 ) ;
#53 = ORIENTED_EDGE ( 'NONE', *, *, #245, .F. ) ;
#54 = ADVANCED_FACE ( 'NONE', ( #127, #198 ), #104, .F. ) ;
#55 = ORIENTED_EDGE ( 'NONE', *, *, #278, .T. ) ;
#56 = CC_DESIGN_DATE_AND_TIME_ASSIGNMENT ( #148, #150, ( #223 ) ) ;
#57 = CARTESIAN_POINT ( 'NONE',  ( -2.500000000000000444, 1.224646799147353256E-15, -10.00000000000000000 ) ) ;
#58 = AXIS2_PLACEMENT_3D ( 'NONE', #129, #50, #222 ) ;
#59 = CARTESIAN_POINT ( 'NONE',  ( -3.000000000000000000, 0.000000000000000000, 0.000000000000000000 ) ) ;
#60 = DIRECTION ( 'NONE',  ( -1.000000000000000000, -0.000000000000000000, -0.000000000000000000 ) ) ;
#61 = CIRCLE ( 'NONE', #273, 12.69999999999999929 ) ;
#62 = DIRECTION ( 'NONE',  ( 0.000000000000000000, 0.000000000000000000, 1.000000000000000000 ) ) ;
#63 = CARTESIAN_POINT ( 'NONE',  ( -1.614212418857619014, 0.000000000000000000, 0.000000000000000000 ) ) ;
#64 = ADVANCED_FACE ( 'NONE', ( #138 ), #314, .F. ) ;
#65 = AXIS2_PLACEMENT_3D ( 'NONE', #87, #231, #313 ) ;
#66 = LOCAL_TIME ( 17, 1, 7.000000000000000000, #123 ) ;
#67 = FACE_OUTER_BOUND ( 'NONE', #294, .T. ) ;
#68 = ORIENTED_EDGE ( 'NONE', *, *, #137, .F. ) ;
#69 = AXIS2_PLACEMENT_3D ( 'NONE', #224, #335, #262 ) ;
#70 = APPROVAL_ROLE ( '' ) ;
#71 = PERSON_AND_ORGANIZATION ( #118, #334 ) ;
#72 = PERSON_AND_ORGANIZATION ( #118, #334 ) ;
#73 = ORIENTED_EDGE ( 'NONE', *, *, #230, .T. ) ;
#74 = APPROVAL_STATUS ( 'not_yet_approved' ) ;
#75 = LINE ( 'NONE', #253, #213 ) ;
#76 = CC_DESIGN_SECURITY_CLASSIFICATION ( #11, ( #162 ) ) ;
#77 = CARTESIAN_POINT ( 'NONE',  ( -2.500000000000000444, 0.000000000000000000, 0.000000000000000000 ) ) ;
#78 = CIRCLE ( 'NONE', #154, 12.69999999999999929 ) ;
#79 = ORIENTED_EDGE ( 'NONE', *, *, #92, .T. ) ;
#80 = VECTOR ( 'NONE', #267, 1000.000000000000000 ) ;
#81 = EDGE_CURVE ( 'NONE', #122, #283, #209, .T. ) ;
#82 = EDGE_LOOP ( 'NONE', ( #308, #246, #106, #305 ) ) ;
#83 = DIRECTION ( 'NONE',  ( -1.000000000000000000, -0.000000000000000000, -0.000000000000000000 ) ) ;
#84 = DIRECTION ( 'NONE',  ( -1.000000000000000000, -0.000000000000000000, -0.000000000000000000 ) ) ;
#85 = CARTESIAN_POINT ( 'NONE',  ( -1.614212418857619014, 1.555301434917138433E-15, -12.69999999999999929 ) ) ;
#86 = LINE ( 'NONE', #288, #24 ) ;
#87 = CARTESIAN_POINT ( 'NONE',  ( -3.000000000000000444, 0.000000000000000000, 0.000000000000000000 ) ) ;
#88 = APPROVAL ( #191, 'UNSPECIFIED' ) ;
#89 = PLANE ( 'NONE',  #130 ) ;
#90 = DIRECTION ( 'NONE',  ( 0.000000000000000000, 0.000000000000000000, 1.000000000000000000 ) ) ;
#91 = AXIS2_PLACEMENT_3D ( 'NONE', #322, #298, #233 ) ;
#92 = EDGE_CURVE ( 'NONE', #28, #157, #86, .T. ) ;
#93 = ORIENTED_EDGE ( 'NONE', *, *, #264, .T. ) ;
#94 = PRODUCT ( 'Q-ZDWWP-R12-20-1064-SHM', 'Q-ZDWWP-R12-20-1064-SHM', '', ( #280 ) ) ;
#95 = EDGE_CURVE ( 'NONE', #283, #108, #212, .T. ) ;
#96 = AXIS2_PLACEMENT_3D ( 'NONE', #185, #83, #113 ) ;
#97 = PERSON_AND_ORGANIZATION ( #118, #334 ) ;
#98 = FACE_OUTER_BOUND ( 'NONE', #107, .T. ) ;
#99 = COORDINATED_UNIVERSAL_TIME_OFFSET ( 8, 0, .AHEAD. ) ;
#100 = SHAPE_DEFINITION_REPRESENTATION ( #42, #30 ) ;
#101 = EDGE_LOOP ( 'NONE', ( #194, #307 ) ) ;
#102 = COORDINATED_UNIVERSAL_TIME_OFFSET ( 8, 0, .AHEAD. ) ;
#103 = DIRECTION ( 'NONE',  ( 1.000000000000000000, 0.000000000000000000, 0.000000000000000000 ) ) ;
#104 = PLANE ( 'NONE',  #69 ) ;
#105 = EDGE_CURVE ( 'NONE', #238, #153, #78, .T. ) ;
#106 = ORIENTED_EDGE ( 'NONE', *, *, #81, .T. ) ;
#107 = EDGE_LOOP ( 'NONE', ( #254, #255, #131, #176 ) ) ;
#108 = VERTEX_POINT ( 'NONE', #269 ) ;
#109 = CARTESIAN_POINT ( 'NONE',  ( 2.500000000000000888, 0.000000000000000000, 10.00000000000000000 ) ) ;
#110 = CARTESIAN_POINT ( 'NONE',  ( 3.000000000000000000, 0.000000000000000000, 0.000000000000000000 ) ) ;
#111 = CARTESIAN_POINT ( 'NONE',  ( 2.500000000000000444, 10.00000000000000000, 0.000000000000000000 ) ) ;
#112 = CC_DESIGN_PERSON_AND_ORGANIZATION_ASSIGNMENT ( #276, #247, ( #162 ) ) ;
#113 = DIRECTION ( 'NONE',  ( 0.000000000000000000, 0.000000000000000000, 1.000000000000000000 ) ) ;
#114 = DIRECTION ( 'NONE',  ( 1.000000000000000000, 0.000000000000000000, 0.000000000000000000 ) ) ;
#115 = AXIS2_PLACEMENT_3D ( 'NONE', #40, #239, #206 ) ;
#116 = DIRECTION ( 'NONE',  ( 0.000000000000000000, 0.000000000000000000, -1.000000000000000000 ) ) ;
#117 = VERTEX_POINT ( 'NONE', #7 ) ;
#118 = PERSON ( 'UNSPECIFIED', 'UNSPECIFIED', 'UNSPECIFIED', ('UNSPECIFIED'), ('UNSPECIFIED'), ('UNSPECIFIED') ) ;
#119 = DIRECTION ( 'NONE',  ( -1.000000000000000000, -0.000000000000000000, -0.000000000000000000 ) ) ;
#120 = APPROVAL_DATE_TIME ( #45, #168 ) ;
#121 = CARTESIAN_POINT ( 'NONE',  ( -1.614212418857619014, 0.000000000000000000, 12.69999999999999929 ) ) ;
#122 = VERTEX_POINT ( 'NONE', #232 ) ;
#123 = COORDINATED_UNIVERSAL_TIME_OFFSET ( 8, 0, .AHEAD. ) ;
#124 = ADVANCED_FACE ( 'NONE', ( #67 ), #286, .F. ) ;
#125 = DATE_AND_TIME ( #22, #285 ) ;
#126 = DIRECTION ( 'NONE',  ( -1.000000000000000000, -0.000000000000000000, -0.000000000000000000 ) ) ;
#127 = FACE_OUTER_BOUND ( 'NONE', #242, .T. ) ;
#128 = AXIS2_PLACEMENT_3D ( 'NONE', #63, #84, #234 ) ;
#129 = CARTESIAN_POINT ( 'NONE',  ( 2.500000000000000888, 0.000000000000000000, 0.000000000000000000 ) ) ;
#130 = AXIS2_PLACEMENT_3D ( 'NONE', #111, #208, #316 ) ;
#131 = ORIENTED_EDGE ( 'NONE', *, *, #287, .T. ) ;
#132 = ORIENTED_EDGE ( 'NONE', *, *, #226, .T. ) ;
#133 = DIRECTION ( 'NONE',  ( -1.000000000000000000, -0.000000000000000000, -0.000000000000000000 ) ) ;
#134 = CC_DESIGN_PERSON_AND_ORGANIZATION_ASSIGNMENT ( #295, #149, ( #94 ) ) ;
#135 = FACE_OUTER_BOUND ( 'NONE', #303, .T. ) ;
#136 = DIRECTION ( 'NONE',  ( -1.000000000000000000, -0.000000000000000000, -0.000000000000000000 ) ) ;
#137 = EDGE_CURVE ( 'NONE', #21, #28, #52, .T. ) ;
#138 = FACE_OUTER_BOUND ( 'NONE', #214, .T. ) ;
#139 = CARTESIAN_POINT ( 'NONE',  ( -1.614212418857619014, 0.000000000000000000, 0.000000000000000000 ) ) ;
#140 = CARTESIAN_POINT ( 'NONE',  ( -1.614212418857619014, 0.000000000000000000, 0.000000000000000000 ) ) ;
#141 = ADVANCED_FACE ( 'NONE', ( #292 ), #240, .F. ) ;
#142 = CARTESIAN_POINT ( 'NONE',  ( -1.614212418857619014, 0.000000000000000000, 0.000000000000000000 ) ) ;
#143 = DIRECTION ( 'NONE',  ( 0.000000000000000000, 0.000000000000000000, 1.000000000000000000 ) ) ;
#144 =( GEOMETRIC_REPRESENTATION_CONTEXT ( 3 ) GLOBAL_UNCERTAINTY_ASSIGNED_CONTEXT ( ( #306 ) ) GLOBAL_UNIT_ASSIGNED_CONTEXT ( ( #146, #23, #189 ) ) REPRESENTATION_CONTEXT ( 'NONE', 'WORKASPACE' ) );
#145 = APPROVAL_ROLE ( '' ) ;
#146 =( LENGTH_UNIT ( ) NAMED_UNIT ( * ) SI_UNIT ( .MILLI., .METRE. ) );
#147 = CC_DESIGN_APPROVAL ( #164, ( #11 ) ) ;
#148 = DATE_AND_TIME ( #330, #261 ) ;
#149 = PERSON_AND_ORGANIZATION_ROLE ( 'design_owner' ) ;
#150 = DATE_TIME_ROLE ( 'creation_date' ) ;
#151 = AXIS2_PLACEMENT_3D ( 'NONE', #183, #291, #62 ) ;
#152 = ORIENTED_EDGE ( 'NONE', *, *, #81, .F. ) ;
#153 = VERTEX_POINT ( 'NONE', #309 ) ;
#154 = AXIS2_PLACEMENT_3D ( 'NONE', #110, #133, #90 ) ;
#155 = VERTEX_POINT ( 'NONE', #57 ) ;
#156 = AXIS2_PLACEMENT_3D ( 'NONE', #142, #331, #277 ) ;
#157 = VERTEX_POINT ( 'NONE', #160 ) ;
#158 = APPLICATION_CONTEXT ( 'configuration controlled 3d designs of mechanical parts and assemblies' ) ;
#159 = EDGE_CURVE ( 'NONE', #157, #178, #325, .T. ) ;
#160 = CARTESIAN_POINT ( 'NONE',  ( 2.500000000000000888, 1.224646799147353256E-15, -10.00000000000000000 ) ) ;
#161 = CARTESIAN_POINT ( 'NONE',  ( 3.000000000000000000, 1.555301434917138433E-15, -12.69999999999999929 ) ) ;
#162 = PRODUCT_DEFINITION_FORMATION_WITH_SPECIFIED_SOURCE ( 'ANY', '', #94, .NOT_KNOWN. ) ;
#163 = DESIGN_CONTEXT ( 'detailed design', #48, 'design' ) ;
#164 = APPROVAL ( #197, 'UNSPECIFIED' ) ;
#165 = FACE_OUTER_BOUND ( 'NONE', #196, .T. ) ;
#166 = EDGE_LOOP ( 'NONE', ( #266, #79, #202, #190 ) ) ;
#167 = APPLICATION_PROTOCOL_DEFINITION ( 'international standard', 'config_control_design', 1994, #48 ) ;
#168 = APPROVAL ( #74, 'UNSPECIFIED' ) ;
#169 = ORIENTED_EDGE ( 'NONE', *, *, #92, .F. ) ;
#170 = COORDINATED_UNIVERSAL_TIME_OFFSET ( 8, 0, .AHEAD. ) ;
#171 = DIRECTION ( 'NONE',  ( 1.000000000000000000, 0.000000000000000000, 0.000000000000000000 ) ) ;
#172 = APPROVAL_ROLE ( '' ) ;
#173 = CARTESIAN_POINT ( 'NONE',  ( -3.000000000000000444, 0.000000000000000000, 10.00000000000000000 ) ) ;
#174 = ORIENTED_EDGE ( 'NONE', *, *, #38, .F. ) ;
#175 = CYLINDRICAL_SURFACE ( 'NONE', #201, 10.00000000000000000 ) ;
#176 = ORIENTED_EDGE ( 'NONE', *, *, #181, .F. ) ;
#177 = APPROVAL_PERSON_ORGANIZATION ( #219, #164, #145 ) ;
#178 = VERTEX_POINT ( 'NONE', #109 ) ;
#179 = PERSON_AND_ORGANIZATION ( #118, #334 ) ;
#180 = DIRECTION ( 'NONE',  ( -1.000000000000000000, -0.000000000000000000, -0.000000000000000000 ) ) ;
#181 = EDGE_CURVE ( 'NONE', #117, #43, #61, .T. ) ;
#182 = DIRECTION ( 'NONE',  ( 0.000000000000000000, 0.000000000000000000, -1.000000000000000000 ) ) ;
#183 = CARTESIAN_POINT ( 'NONE',  ( 2.999999999999999112, 0.000000000000000000, 0.000000000000000000 ) ) ;
#184 = CC_DESIGN_APPROVAL ( #88, ( #223 ) ) ;
#185 = CARTESIAN_POINT ( 'NONE',  ( 2.999999999999999112, 0.000000000000000000, 0.000000000000000000 ) ) ;
#186 = DIRECTION ( 'NONE',  ( 0.000000000000000000, 0.000000000000000000, 1.000000000000000000 ) ) ;
#187 = ADVANCED_FACE ( 'NONE', ( #259, #215 ), #192, .F. ) ;
#188 = ADVANCED_FACE ( 'NONE', ( #165 ), #37, .T. ) ;
#189 =( NAMED_UNIT ( * ) SI_UNIT ( $, .STERADIAN. ) SOLID_ANGLE_UNIT ( ) );
#190 = ORIENTED_EDGE ( 'NONE', *, *, #13, .F. ) ;
#191 = APPROVAL_STATUS ( 'not_yet_approved' ) ;
#192 = PLANE ( 'NONE',  #91 ) ;
#193 = CIRCLE ( 'NONE', #65, 10.00000000000000000 ) ;
#194 = ORIENTED_EDGE ( 'NONE', *, *, #95, .F. ) ;
#195 = DIRECTION ( 'NONE',  ( 0.000000000000000000, 0.000000000000000000, 1.000000000000000000 ) ) ;
#196 = EDGE_LOOP ( 'NONE', ( #252, #73, #53, #320 ) ) ;
#197 = APPROVAL_STATUS ( 'not_yet_approved' ) ;
#198 = FACE_BOUND ( 'NONE', #29, .T. ) ;
#199 = AXIS2_PLACEMENT_3D ( 'NONE', #34, #319, #143 ) ;
#200 = ORIENTED_EDGE ( 'NONE', *, *, #245, .T. ) ;
#201 = AXIS2_PLACEMENT_3D ( 'NONE', #302, #126, #220 ) ;
#202 = ORIENTED_EDGE ( 'NONE', *, *, #159, .T. ) ;
#203 = CARTESIAN_POINT ( 'NONE',  ( 2.999999999999999112, 1.224646799147353256E-15, -10.00000000000000000 ) ) ;
#204 = AXIS2_PLACEMENT_3D ( 'NONE', #20, #119, #290 ) ;
#205 = DIRECTION ( 'NONE',  ( -1.000000000000000000, -0.000000000000000000, -0.000000000000000000 ) ) ;
#206 = DIRECTION ( 'NONE',  ( 0.000000000000000000, 0.000000000000000000, 1.000000000000000000 ) ) ;
#207 = CARTESIAN_POINT ( 'NONE',  ( -2.500000000000000444, 10.00000000000000000, 0.000000000000000000 ) ) ;
#208 = DIRECTION ( 'NONE',  ( -1.000000000000000000, 0.000000000000000000, -0.000000000000000000 ) ) ;
#209 = LINE ( 'NONE', #10, #315 ) ;
#210 = ADVANCED_FACE ( 'NONE', ( #235 ), #236, .F. ) ;
#211 = EDGE_CURVE ( 'NONE', #155, #122, #293, .T. ) ;
#212 = CIRCLE ( 'NONE', #199, 10.00000000000000000 ) ;
#213 = VECTOR ( 'NONE', #26, 1000.000000000000000 ) ;
#214 = EDGE_LOOP ( 'NONE', ( #227, #55, #132, #152 ) ) ;
#215 = FACE_OUTER_BOUND ( 'NONE', #332, .T. ) ;
#216 = PERSON_AND_ORGANIZATION_ROLE ( 'design_supplier' ) ;
#217 = EDGE_CURVE ( 'NONE', #153, #238, #272, .T. ) ;
#218 = DATE_AND_TIME ( #243, #66 ) ;
#219 = PERSON_AND_ORGANIZATION ( #118, #334 ) ;
#220 = DIRECTION ( 'NONE',  ( 0.000000000000000000, 0.000000000000000000, 1.000000000000000000 ) ) ;
#221 = CARTESIAN_POINT ( 'NONE',  ( 2.999999999999999112, 0.000000000000000000, 10.00000000000000000 ) ) ;
#222 = DIRECTION ( 'NONE',  ( 0.000000000000000000, 0.000000000000000000, 1.000000000000000000 ) ) ;
#223 = PRODUCT_DEFINITION ( 'UNKNOWN', '', #162, #163 ) ;
#224 = CARTESIAN_POINT ( 'NONE',  ( 2.999999999999999112, 12.69999999999999929, 0.000000000000000000 ) ) ;
#225 = AXIS2_PLACEMENT_3D ( 'NONE', #258, #229, #4 ) ;
#226 = EDGE_CURVE ( 'NONE', #108, #283, #193, .T. ) ;
#227 = ORIENTED_EDGE ( 'NONE', *, *, #38, .T. ) ;
#228 = DIRECTION ( 'NONE',  ( -1.000000000000000000, -0.000000000000000000, -0.000000000000000000 ) ) ;
#229 = DIRECTION ( 'NONE',  ( -1.000000000000000000, -0.000000000000000000, -0.000000000000000000 ) ) ;
#230 = EDGE_CURVE ( 'NONE', #238, #117, #289, .T. ) ;
#231 = DIRECTION ( 'NONE',  ( -1.000000000000000000, -0.000000000000000000, -0.000000000000000000 ) ) ;
#232 = CARTESIAN_POINT ( 'NONE',  ( -2.500000000000000444, 0.000000000000000000, 10.00000000000000000 ) ) ;
#233 = DIRECTION ( 'NONE',  ( 0.000000000000000000, 0.000000000000000000, -1.000000000000000000 ) ) ;
#234 = DIRECTION ( 'NONE',  ( 0.000000000000000000, 0.000000000000000000, 1.000000000000000000 ) ) ;
#235 = FACE_OUTER_BOUND ( 'NONE', #166, .T. ) ;
#236 = CYLINDRICAL_SURFACE ( 'NONE', #36, 10.00000000000000000 ) ;
#237 = CC_DESIGN_DATE_AND_TIME_ASSIGNMENT ( #125, #324, ( #11 ) ) ;
#238 = VERTEX_POINT ( 'NONE', #161 ) ;
#239 = DIRECTION ( 'NONE',  ( -1.000000000000000000, -0.000000000000000000, -0.000000000000000000 ) ) ;
#240 = CYLINDRICAL_SURFACE ( 'NONE', #204, 10.00000000000000000 ) ;
#241 = AXIS2_PLACEMENT_3D ( 'NONE', #244, #195, #171 ) ;
#242 = EDGE_LOOP ( 'NONE', ( #27, #51 ) ) ;
#243 = CALENDAR_DATE ( 2020, 22, 12 ) ;
#244 = CARTESIAN_POINT ( 'NONE',  ( 0.000000000000000000, 0.000000000000000000, 0.000000000000000000 ) ) ;
#245 = EDGE_CURVE ( 'NONE', #43, #117, #281, .T. ) ;
#246 = ORIENTED_EDGE ( 'NONE', *, *, #211, .T. ) ;
#247 = PERSON_AND_ORGANIZATION_ROLE ( 'creator' ) ;
#248 = APPROVAL_DATE_TIME ( #271, #88 ) ;
#249 = AXIS2_PLACEMENT_3D ( 'NONE', #77, #103, #279 ) ;
#250 = SECURITY_CLASSIFICATION_LEVEL ( 'unclassified' ) ;
#251 = ADVANCED_FACE ( 'NONE', ( #135 ), #89, .F. ) ;
#252 = ORIENTED_EDGE ( 'NONE', *, *, #217, .T. ) ;
#253 = CARTESIAN_POINT ( 'NONE',  ( -1.614212418857619014, 1.224646799147353256E-15, -10.00000000000000000 ) ) ;
#254 = ORIENTED_EDGE ( 'NONE', *, *, #230, .F. ) ;
#255 = ORIENTED_EDGE ( 'NONE', *, *, #105, .T. ) ;
#256 = CC_DESIGN_PERSON_AND_ORGANIZATION_ASSIGNMENT ( #179, #310, ( #223 ) ) ;
#257 = ORIENTED_EDGE ( 'NONE', *, *, #44, .F. ) ;
#258 = CARTESIAN_POINT ( 'NONE',  ( 2.500000000000000888, 0.000000000000000000, 0.000000000000000000 ) ) ;
#259 = FACE_BOUND ( 'NONE', #101, .T. ) ;
#260 = CARTESIAN_POINT ( 'NONE',  ( -3.000000000000000000, 0.000000000000000000, 0.000000000000000000 ) ) ;
#261 = LOCAL_TIME ( 17, 1, 7.000000000000000000, #99 ) ;
#262 = DIRECTION ( 'NONE',  ( -0.000000000000000000, 0.000000000000000000, 1.000000000000000000 ) ) ;
#263 = CC_DESIGN_PERSON_AND_ORGANIZATION_ASSIGNMENT ( #97, #25, ( #11 ) ) ;
#264 = EDGE_CURVE ( 'NONE', #28, #21, #31, .T. ) ;
#265 = APPROVAL_PERSON_ORGANIZATION ( #72, #88, #70 ) ;
#266 = ORIENTED_EDGE ( 'NONE', *, *, #264, .F. ) ;
#267 = DIRECTION ( 'NONE',  ( -1.000000000000000000, -0.000000000000000000, -0.000000000000000000 ) ) ;
#268 = CIRCLE ( 'NONE', #58, 10.00000000000000000 ) ;
#269 = CARTESIAN_POINT ( 'NONE',  ( -3.000000000000000444, 1.224646799147353256E-15, -10.00000000000000000 ) ) ;
#270 = ADVANCED_FACE ( 'NONE', ( #327 ), #175, .F. ) ;
#271 = DATE_AND_TIME ( #275, #304 ) ;
#272 = CIRCLE ( 'NONE', #115, 12.69999999999999929 ) ;
#273 = AXIS2_PLACEMENT_3D ( 'NONE', #59, #205, #312 ) ;
#274 = COORDINATED_UNIVERSAL_TIME_OFFSET ( 8, 0, .AHEAD. ) ;
#275 = CALENDAR_DATE ( 2020, 22, 12 ) ;
#276 = PERSON_AND_ORGANIZATION ( #118, #334 ) ;
#277 = DIRECTION ( 'NONE',  ( 0.000000000000000000, 0.000000000000000000, 1.000000000000000000 ) ) ;
#278 = EDGE_CURVE ( 'NONE', #155, #108, #75, .T. ) ;
#279 = DIRECTION ( 'NONE',  ( 0.000000000000000000, 0.000000000000000000, -1.000000000000000000 ) ) ;
#280 = MECHANICAL_CONTEXT ( 'NONE', #158, 'mechanical' ) ;
#281 = CIRCLE ( 'NONE', #284, 12.69999999999999929 ) ;
#282 = ORIENTED_EDGE ( 'NONE', *, *, #13, .T. ) ;
#283 = VERTEX_POINT ( 'NONE', #173 ) ;
#284 = AXIS2_PLACEMENT_3D ( 'NONE', #260, #33, #318 ) ;
#285 = LOCAL_TIME ( 17, 1, 7.000000000000000000, #102 ) ;
#286 = PLANE ( 'NONE',  #8 ) ;
#287 = EDGE_CURVE ( 'NONE', #153, #43, #18, .T. ) ;
#288 = CARTESIAN_POINT ( 'NONE',  ( -1.614212418857619014, 1.224646799147353256E-15, -10.00000000000000000 ) ) ;
#289 = LINE ( 'NONE', #85, #49 ) ;
#290 = DIRECTION ( 'NONE',  ( 0.000000000000000000, 0.000000000000000000, 1.000000000000000000 ) ) ;
#291 = DIRECTION ( 'NONE',  ( -1.000000000000000000, -0.000000000000000000, -0.000000000000000000 ) ) ;
#292 = FACE_OUTER_BOUND ( 'NONE', #17, .T. ) ;
#293 = CIRCLE ( 'NONE', #5, 10.00000000000000000 ) ;
#294 = EDGE_LOOP ( 'NONE', ( #174, #333 ) ) ;
#295 = PERSON_AND_ORGANIZATION ( #118, #334 ) ;
#296 = ORIENTED_EDGE ( 'NONE', *, *, #181, .T. ) ;
#297 = CIRCLE ( 'NONE', #249, 10.00000000000000000 ) ;
#298 = DIRECTION ( 'NONE',  ( 1.000000000000000000, 0.000000000000000000, 0.000000000000000000 ) ) ;
#299 = CALENDAR_DATE ( 2020, 22, 12 ) ;
#300 = MANIFOLD_SOLID_BREP ( 'Ðý×', #2 ) ;
#301 = APPROVAL_PERSON_ORGANIZATION ( #71, #168, #172 ) ;
#302 = CARTESIAN_POINT ( 'NONE',  ( -1.614212418857619014, 0.000000000000000000, 0.000000000000000000 ) ) ;
#303 = EDGE_LOOP ( 'NONE', ( #257, #14 ) ) ;
#304 = LOCAL_TIME ( 17, 1, 7.000000000000000000, #170 ) ;
#305 = ORIENTED_EDGE ( 'NONE', *, *, #95, .T. ) ;
#306 = UNCERTAINTY_MEASURE_WITH_UNIT (LENGTH_MEASURE( 1.000000000000000082E-05 ), #146, 'distance_accuracy_value', 'NONE');
#307 = ORIENTED_EDGE ( 'NONE', *, *, #226, .F. ) ;
#308 = ORIENTED_EDGE ( 'NONE', *, *, #278, .F. ) ;
#309 = CARTESIAN_POINT ( 'NONE',  ( 3.000000000000000000, 0.000000000000000000, 12.69999999999999929 ) ) ;
#310 = PERSON_AND_ORGANIZATION_ROLE ( 'creator' ) ;
#311 = ADVANCED_FACE ( 'NONE', ( #98 ), #41, .T. ) ;
#312 = DIRECTION ( 'NONE',  ( 0.000000000000000000, 0.000000000000000000, 1.000000000000000000 ) ) ;
#313 = DIRECTION ( 'NONE',  ( 0.000000000000000000, 0.000000000000000000, 1.000000000000000000 ) ) ;
#314 = CYLINDRICAL_SURFACE ( 'NONE', #128, 10.00000000000000000 ) ;
#315 = VECTOR ( 'NONE', #136, 1000.000000000000000 ) ;
#316 = DIRECTION ( 'NONE',  ( -0.000000000000000000, 0.000000000000000000, 1.000000000000000000 ) ) ;
#317 = AXIS2_PLACEMENT_3D ( 'NONE', #140, #35, #186 ) ;
#318 = DIRECTION ( 'NONE',  ( 0.000000000000000000, 0.000000000000000000, 1.000000000000000000 ) ) ;
#319 = DIRECTION ( 'NONE',  ( -1.000000000000000000, -0.000000000000000000, -0.000000000000000000 ) ) ;
#320 = ORIENTED_EDGE ( 'NONE', *, *, #287, .F. ) ;
#321 = APPLICATION_PROTOCOL_DEFINITION ( 'international standard', 'config_control_design', 1994, #158 ) ;
#322 = CARTESIAN_POINT ( 'NONE',  ( -3.000000000000000000, 10.00000000000000000, 0.000000000000000000 ) ) ;
#323 = CC_DESIGN_PERSON_AND_ORGANIZATION_ASSIGNMENT ( #46, #216, ( #162 ) ) ;
#324 = DATE_TIME_ROLE ( 'classification_date' ) ;
#325 = CIRCLE ( 'NONE', #225, 10.00000000000000000 ) ;
#326 = APPROVAL_DATE_TIME ( #218, #164 ) ;
#327 = FACE_OUTER_BOUND ( 'NONE', #82, .T. ) ;
#328 = CC_DESIGN_APPROVAL ( #168, ( #162 ) ) ;
#329 = PRODUCT_RELATED_PRODUCT_CATEGORY ( 'detail', '', ( #94 ) ) ;
#330 = CALENDAR_DATE ( 2020, 22, 12 ) ;
#331 = DIRECTION ( 'NONE',  ( -1.000000000000000000, -0.000000000000000000, -0.000000000000000000 ) ) ;
#332 = EDGE_LOOP ( 'NONE', ( #200, #296 ) ) ;
#333 = ORIENTED_EDGE ( 'NONE', *, *, #211, .F. ) ;
#334 = ORGANIZATION ( 'UNSPECIFIED', 'UNSPECIFIED', '' ) ;
#335 = DIRECTION ( 'NONE',  ( -1.000000000000000000, 0.000000000000000000, -0.000000000000000000 ) ) ;
ENDSEC;
END-ISO-10303-21;
